lunes, 1 de agosto de 2011

Y nada más








(Intro)

e|0-2-3-5-7-5-3-2-  <---(1ª Voz)
B|0-0-5-4-3-2-1-0-  <---(2ª Voz)
G|----------------
D|----------------
A|----------------
E|----------------

1ª Guitarra                               ----|
                                              |
 |D        |C          |G        |Am          |
e|-----2----------0----------3--------0--     |
B|3---------------------0-----------1---1     |
G|---2---2-----0-----0-----0---0---------     |
D|0--------------------------------------     |
A|----------3---------------------0------     |
E|----------------------3----------------     |
                                              |
 |Em                                          |
e|----0---2---3---2---0---2---0----------     |
B|--0---0---0---0---0---0---0------------     |
G|---------------------------------------     |
D|---------------------------------------     |
A|---------------------------------------     |
E|0--------------------------------------     |
                                              |
1ª Guitarra (Al mismo tiempo la 1ª y 2ª)      |
                                              |
 |D        |C          |G        |Am          |
e|-----2----------0----------3--------0--     |
B|3---------------------0-----------1---1     |
G|---2---2-----0-----0-----0---0---------     | <---- 2 (Veces) 
D|0--------------------------------------     |   Arpegio de
A|----------3---------------------0------     |    estrofas
E|----------------------3----------------     |      (***)
                                              |
 |Em                                          |
e|----0---2---3---2---0---2---0----------     |
B|--0---0---0---0---0---0---0------------     |
G|---------------------------------------     |
D|---------------------------------------     |
A|---------------------------------------     | 
E|0--------------------------------------     |
                                              |
2ª Guitarra                                   |
                                              |
                                              |
e|2--2--2p3--3--3p2--2p3--3--3h5--3--2p0-     |
B|---------------------------------------     |
G|---------------------------------------     |
D|---------------------------------------     |
A|---------------------------------------     |
E|---------------------------------------     |
                                              |
                                              |
                                          ----|

D        C    G
Esta extraña tarde
    Am       Em
desde mi ventana        <----(***)
   D      C     G
Trae la brisa vieja
    Am       Em
de por la mañana



(Coro)

 |Bm               |G 
e|--------2-----------------3-------------
B|3---3-------------3---3-------3---------
G|--4---4---4---------4---4---4---4-------
D|----------------------------------------
A|2------------2--0-----------------------
E|------------------3---------------------

 |Bm               |G 
e|--------2-----------------3-------------
B|3---3-------------3---3-------3---------
G|--4---4---4---------4---4---4---4-------
D|----------------------------------------
A|2------------2--0-----------------------
E|------------------3---------------------

 |Am               |C 
e|--------0-----------------0-------------
B|1---1-------------1---1-------1---------
G|--2---2---2---------0---0---0---0-------
D|----------------------------------------
A|0------------0--2-3---------------------
E|----------------------------------------

 |Am               |C 
e|--------0-----------------0-------------
B|1---1-------------1---1-------1---------
G|--2---2---2---------0---0---0---0-------
D|----------------------------------------
A|0------------0--2-3---------------------
E|----------------------------------------

 |D                |G 
e|------2p3p2-----2---------5--3----------
B|3---3-------3---------3-----------------
G|--2-----------2-----0---0--0---0--------
D|0---------------------------------------
A|----------------------------------------
E|------------------3---------------------

 |D                
e|------2p3p2-----2-
B|3---3-------3-----
G|--2-----------2---
D|0-----------------
A|------------------
E|------------------

(Coro)
Bm
No hay nada aquí:
G                       Bm             G
sólo unos días que se prestan a pasar,
                           Am           C
sólo una tarde en que se puede respirar
                        Am                C
un diminuto instante inmenso en el vivir.
                       D
Después mirar la realidad
        G  D         (Em****)
Y nada más,  y nada más.


(Em****)
 |Em
e|----0---2---3---2---0---2---0----------
B|--0---0---0---0---0---0---0------------
G|---------------------------------------
D|---------------------------------------
A|---------------------------------2p0---
E|0------------------------------------0-

 |Em
e|----0---2---3---2---0---2---0----------
B|--0---0---0---0---0---0---0------------
G|---------------------------------------
D|---------------------------------------
A|---------------------------------------
E|0--------------------------------------


D      C    G 
Ahora me parece
        Am     Em
que hubiera vivido
D      C      G         <-----(***)
Un caudal de siglos
      Am      Em
por viejos caminos.


(Coro) [Rasgueado hasta (Em****)]
Bm
No hay nada aquí:
G                       Bm             G
sólo unos días que se prestan a pasar,
                           Am           C
sólo una tarde en que se puede respirar
                        Am                C
un diminuto instante inmenso en el vivir.
                       D
Después mirar la realidad
        G  D         (Em****)
Y nada más,  y nada más.


(Em****)                                  ----|
 |Em                                          |
e|----0---2---3---2---0---2---0----------     |
B|--0---0---0---0---0---0---0------------     |
G|---------------------------------------     |
D|---------------------------------------     |
A|---------------------------------2p0---     |
E|0------------------------------------0-     |
                                              |
 |Em                                          | <--- 4 veces
e|----0---2---3---2---0---2---0--------0-     |
B|--0---0---0---0---0---0---0----------0-     |
G|-------------------------------------0-     |
D|-------------------------------------2-     |
A|---------------------------------2p0-2-     |
E|0------------------------------------0-     |
                                              |
                                              |
                                          ----|


LaCuerda
 
LETRA Y MAS